  0
SECTION
  2
HEADER
  9
$ACADVER
  1
AC1009
  9
$INSBASE
 10
-0.5327009151336028
 20
-2.115933078268597
 30
0.0
  9
$EXTMIN
 10
3.302092082831288
 20
1.464871617615756
 30
0.0
  9
$EXTMAX
 10
86.24985747087121
 20
37.32331229054067
 30
0.0
  9
$LIMMIN
 10
0.0
 20
0.0
  9
$LIMMAX
 10
420.0
 20
297.0
  9
$ORTHOMODE
 70
     1
  9
$REGENMODE
 70
     1
  9
$FILLMODE
 70
     1
  9
$QTEXTMODE
 70
     0
  9
$MIRRTEXT
 70
     0
  9
$DRAGMODE
 70
     2
  9
$LTSCALE
 40
1.0
  9
$OSMODE
 70
    32
  9
$ATTMODE
 70
     2
  9
$TEXTSIZE
 40
2.484999999999999
  9
$TRACEWID
 40
0.1
  9
$TEXTSTYLE
  7
STANDARD
  9
$CLAYER
  8
0
  9
$CELTYPE
  6
BYLAYER
  9
$CECOLOR
 62
   256
  9
$DIMSCALE
 40
1.0
  9
$DIMASZ
 40
2.5
  9
$DIMEXO
 40
1.0
  9
$DIMDLI
 40
8.0
  9
$DIMRND
 40
0.0
  9
$DIMDLE
 40
0.0
  9
$DIMEXE
 40
2.0
  9
$DIMTP
 40
0.1
  9
$DIMTM
 40
0.1
  9
$DIMTXT
 40
3.5
  9
$DIMCEN
 40
2.0
  9
$DIMTSZ
 40
0.0
  9
$DIMTOL
 70
     0
  9
$DIMLIM
 70
     0
  9
$DIMTIH
 70
     0
  9
$DIMTOH
 70
     0
  9
$DIMSE1
 70
     0
  9
$DIMSE2
 70
     0
  9
$DIMTAD
 70
     1
  9
$DIMZIN
 70
     8
  9
$DIMBLK
  1

  9
$DIMASO
 70
     1
  9
$DIMSHO
 70
     1
  9
$DIMPOST
  1

  9
$DIMAPOST
  1

  9
$DIMALT
 70
     0
  9
$DIMALTD
 70
     2
  9
$DIMALTF
 40
25.39999999999999
  9
$DIMLFAC
 40
1.0
  9
$DIMTOFL
 70
     1
  9
$DIMTVP
 40
0.0
  9
$DIMTIX
 70
     0
  9
$DIMSOXD
 70
     0
  9
$DIMSAH
 70
     0
  9
$DIMBLK1
  1

  9
$DIMBLK2
  1

  9
$DIMSTYLE
  2
GEN-ISO
  9
$DIMCLRD
 70
   256
  9
$DIMCLRE
 70
   256
  9
$DIMCLRT
 70
     2
  9
$DIMTFAC
 40
0.71
  9
$DIMGAP
 40
1.5
  9
$LUNITS
 70
     2
  9
$LUPREC
 70
     3
  9
$SKETCHINC
 40
0.1
  9
$FILLETRAD
 40
2.0
  9
$AUNITS
 70
     0
  9
$AUPREC
 70
     1
  9
$MENU
  1

  9
$ELEVATION
 40
0.0
  9
$PELEVATION
 40
0.0
  9
$THICKNESS
 40
0.0
  9
$LIMCHECK
 70
     0
  9
$BLIPMODE
 70
     0
  9
$CHAMFERA
 40
1.0
  9
$CHAMFERB
 40
1.0
  9
$SKPOLY
 70
     1
  9
$TDCREATE
 40
2449507.333709837
  9
$TDUPDATE
 40
2450247.564000231
  9
$TDINDWG
 40
0.2624604167
  9
$TDUSRTIMER
 40
0.2624604167
  9
$USRTIMER
 70
     1
  9
$ANGBASE
 50
0.0
  9
$ANGDIR
 70
     0
  9
$PDMODE
 70
     3
  9
$PDSIZE
 40
0.0
  9
$PLINEWID
 40
0.0
  9
$COORDS
 70
     2
  9
$SPLFRAME
 70
     0
  9
$SPLINETYPE
 70
     6
  9
$SPLINESEGS
 70
     8
  9
$ATTDIA
 70
     1
  9
$ATTREQ
 70
     1
  9
$HANDLING
 70
     1
  9
$HANDSEED
  5
5F
  9
$SURFTAB1
 70
     6
  9
$SURFTAB2
 70
     6
  9
$SURFTYPE
 70
     6
  9
$SURFU
 70
     6
  9
$SURFV
 70
     6
  9
$UCSNAME
  2

  9
$UCSORG
 10
0.0
 20
0.0
 30
0.0
  9
$UCSXDIR
 10
1.0
 20
0.0
 30
0.0
  9
$UCSYDIR
 10
0.0
 20
1.0
 30
0.0
  9
$PUCSNAME
  2

  9
$PUCSORG
 10
0.0
 20
0.0
 30
0.0
  9
$PUCSXDIR
 10
1.0
 20
0.0
 30
0.0
  9
$PUCSYDIR
 10
0.0
 20
1.0
 30
0.0
  9
$USERI1
 70
     0
  9
$USERI2
 70
     3
  9
$USERI3
 70
    15
  9
$USERI4
 70
     0
  9
$USERI5
 70
     0
  9
$USERR1
 40
1.0
  9
$USERR2
 40
1.0
  9
$USERR3
 40
0.0
  9
$USERR4
 40
1.0
  9
$USERR5
 40
0.0
  9
$WORLDVIEW
 70
     1
  9
$SHADEDGE
 70
     3
  9
$SHADEDIF
 70
    70
  9
$TILEMODE
 70
     1
  9
$MAXACTVP
 70
     4
  9
$PINSBASE
 10
0.0
 20
0.0
 30
0.0
  9
$PLIMCHECK
 70
     0
  9
$PEXTMIN
 10
1.000000000000000E+20
 20
1.000000000000000E+20
 30
1.000000000000000E+20
  9
$PEXTMAX
 10
-1.000000000000000E+20
 20
-1.000000000000000E+20
 30
-1.000000000000000E+20
  9
$PLIMMIN
 10
0.0
 20
0.0
  9
$PLIMMAX
 10
420.0
 20
297.0
  9
$UNITMODE
 70
     0
  9
$VISRETAIN
 70
     0
  9
$PLINEGEN
 70
     0
  9
$PSLTSCALE
 70
     0
  9
$TREEDEPTH
 70
  3020
  9
$DWGCODEPAGE
  3
dos850
  0
ENDSEC
  0
SECTION
  2
TABLES
  0
TABLE
  2
VPORT
 70
     2
  0
VPORT
  2
*ACTIVE
 70
     0
 10
0.0
 20
0.0
 11
1.0
 21
1.0
 12
45.05556893145308
 22
33.75700458283758
 13
0.0
 23
0.0
 14
1.0
 24
1.0
 15
10.0
 25
10.0
 16
0.0
 26
0.0
 36
1.0
 17
0.0
 27
0.0
 37
0.0
 40
64.58426593044366
 41
1.275675675675675
 42
50.0
 43
0.0
 44
0.0
 50
0.0
 51
0.0
 71
     0
 72
   100
 73
     1
 74
     0
 75
     0
 76
     0
 77
     0
 78
     0
  0
ENDTAB
  0
TABLE
  2
LTYPE
 70
     3
  0
LTYPE
  2
CONTINUOUS
 70
    64
  3
Solid line
 72
    65
 73
     0
 40
0.0
  0
LTYPE
  2
GEN7A
 70
    64
  3
__ . __ . __
 72
    65
 73
     4
 40
7.5
 49
5.0
 49
-1.25
 49
0.0
 49
-1.25
  0
LTYPE
  2
GEN
 70
    64
  3
----------------------
 72
    65
 73
     2
 40
10000000000.0
 49
0.0
 49
10000000000.0
  0
ENDTAB
  0
TABLE
  2
LAYER
 70
     5
  0
LAYER
  2
0
 70
     0
 62
     7
  6
GEN
  0
LAYER
  2
ITEM_HILFE
 70
    64
 62
     3
  6
CONTINUOUS
  0
LAYER
  2
ITEM_GSTRG
 70
    64
 62
     6
  6
GEN7A
  0
LAYER
  2
ITEM_STPG
 70
    64
 62
     4
  6
GEN7A
  0
LAYER
  2
ITEM_50
 70
    64
 62
     7
  6
CONTINUOUS
  0
ENDTAB
  0
TABLE
  2
STYLE
 70
     1
  0
STYLE
  2
STANDARD
 70
     0
 40
0.0
 41
1.0
 50
0.0
 71
     0
 42
2.484999999999999
  3
GENISO
  4

  0
ENDTAB
  0
TABLE
  2
VIEW
 70
     0
  0
ENDTAB
  0
TABLE
  2
UCS
 70
     0
  0
ENDTAB
  0
TABLE
  2
APPID
 70
    10
  0
APPID
  2
ACAD
 70
    64
  0
APPID
  2
GENIUS_GENODEF_13
 70
    64
  0
APPID
  2
GENIUS_GENOBJ-N-FIL_13
 70
    64
  0
ENDTAB
  0
TABLE
  2
DIMSTYLE
 70
     1
  0
DIMSTYLE
  2
GEN-ISO
 70
     0
  3

  4

  5

  6

  7

 40
1.0
 41
2.5
 42
1.0
 43
8.0
 44
2.0
 45
0.0
 46
0.0
 47
0.1
 48
0.1
140
3.5
141
2.0
142
0.0
143
25.39999999999999
144
1.0
145
0.0
146
0.71
147
1.5
 71
     0
 72
     0
 73
     0
 74
     0
 75
     0
 76
     0
 77
     1
 78
     8
170
     0
171
     2
172
     1
173
     0
174
     0
175
     0
176
   256
177
   256
178
     2
  0
ENDTAB
  0
ENDSEC
  0
SECTION
  2
BLOCKS
  0
ENDSEC
  0
SECTION
  2
ENTITIES
  0
LINE
  8
ITEM_50
  5
1E
 10
33.25889808837603
 20
32.31671969657469
 30
0.0
 11
4.463662695693919
 21
32.31671969657469
 31
0.0
  0
LINE
  8
ITEM_50
  5
20
 10
31.16128039203493
 20
33.31671969657469
 30
0.0
 11
6.561280392034966
 21
33.31671969657469
 31
0.0
  0
LINE
  8
ITEM_50
  5
21
 10
3.861280392034977
 20
30.61671969657464
 30
0.0
 11
3.861280392034977
 21
5.032722368983229
 31
0.0
  0
ARC
  8
ITEM_50
  5
22
 10
6.561280392034966
 20
30.61671969657464
 30
0.0
 40
2.7
 50
90.0
 51
180.0
  0
LINE
  8
ITEM_STPG
  5
23
 10
18.86128039203497
 20
37.32331229054067
 30
0.0
 11
18.86128039203497
 21
1.464871617615756
 31
0.0
  0
LINE
  8
ITEM_50
  5
26
 10
21.96128039203494
 20
36.01671969657473
 30
0.0
 11
15.76128039203495
 21
36.01671969657473
 31
0.0
  0
LINE
  8
ITEM_50
  5
27
 10
15.76128039203495
 20
36.01671969657473
 30
0.0
 11
15.76128039203495
 21
33.31671969657469
 31
0.0
  0
LINE
  8
ITEM_50
  5
28
 10
55.95696425205774
 20
3.316719696574693
 30
0.0
 11
84.95696425205775
 21
32.31671969657469
 31
0.0
  0
LINE
  8
ITEM_50
  5
29
 10
54.95696425205774
 20
31.81671969657469
 30
0.0
 11
54.95696425205774
 21
3.816719696574693
 31
0.0
  0
LINE
  8
ITEM_GSTRG
  5
2A
 10
52.25696425205769
 20
6.720629955555693
 30
0.0
 11
54.95696425205774
 21
6.621854064707633
 31
0.0
  0
LINE
  8
ITEM_GSTRG
  5
2C
 10
54.95696425205774
 20
8.012103074876392
 30
0.0
 11
52.25696425205769
 21
7.913327184028219
 31
0.0
  0
LINE
  8
ITEM_GSTRG
  5
2D
 10
52.25696425205769
 20
6.720629955555693
 30
0.0
 11
52.25696425205769
 21
7.913327184028219
 31
0.0
  0
LINE
  8
ITEM_50
  5
2E
 10
55.45696425205774
 20
3.316719696574693
 30
0.0
 11
55.95696425205774
 21
3.316719696574693
 31
0.0
  0
ARC
  8
ITEM_50
  5
2F
 10
55.45696425205774
 20
3.816719696574693
 30
0.0
 40
0.5
 50
180.0
 51
270.0
  0
LINE
  8
ITEM_50
  5
30
 10
84.45696425205775
 20
33.31671969657469
 30
0.0
 11
56.45696425205774
 21
33.31671969657469
 31
0.0
  0
LINE
  8
ITEM_GSTRG
  5
31
 10
52.25696425205769
 20
25.71999961954242
 30
0.0
 11
54.95696425205774
 21
25.62122372869436
 31
0.0
  0
LINE
  8
ITEM_GSTRG
  5
32
 10
54.95696425205774
 20
27.01147273886311
 30
0.0
 11
52.25696425205769
 21
26.91269684801505
 31
0.0
  0
LINE
  8
ITEM_GSTRG
  5
33
 10
52.25696425205769
 20
25.71999961954242
 30
0.0
 11
52.25696425205769
 21
26.91269684801505
 31
0.0
  0
ARC
  8
ITEM_50
  5
34
 10
56.45696425205774
 20
31.81671969657469
 30
0.0
 40
1.5
 50
90.0
 51
180.0
  0
LINE
  8
ITEM_GSTRG
  5
35
 10
61.26221120976932
 20
33.31671969657469
 30
0.0
 11
61.36098710061738
 21
36.01671969657462
 31
0.0
  0
LINE
  8
ITEM_GSTRG
  5
36
 10
62.55368432908991
 20
36.01671969657462
 30
0.0
 11
62.65246021993797
 21
33.31671969657469
 31
0.0
  0
LINE
  8
ITEM_GSTRG
  5
37
 10
62.55368432908991
 20
36.01671969657462
 30
0.0
 11
61.36098710061738
 21
36.01671969657462
 31
0.0
  0
LINE
  8
ITEM_GSTRG
  5
38
 10
81.55305399307675
 20
36.01671969657462
 30
0.0
 11
80.36035676460411
 21
36.01671969657462
 31
0.0
  0
LINE
  8
ITEM_GSTRG
  5
39
 10
80.26158087375605
 20
33.31671969657469
 30
0.0
 11
80.36035676460411
 21
36.01671969657462
 31
0.0
  0
LINE
  8
ITEM_GSTRG
  5
3A
 10
81.55305399307675
 20
36.01671969657462
 30
0.0
 11
81.65182988392481
 21
33.31671969657469
 31
0.0
  0
LINE
  8
ITEM_50
  5
3B
 10
84.95696425205775
 20
32.81671969657469
 30
0.0
 11
84.95696425205775
 21
32.31671969657469
 31
0.0
  0
ARC
  8
ITEM_50
  5
3C
 10
84.45696425205775
 20
32.81671969657469
 30
0.0
 40
0.5
 50
0.0
 51
90.0
  0
LINE
  8
ITEM_STPG
  5
3D
 10
80.95670537884043
 20
37.2248298592704
 30
0.0
 11
80.95670537884043
 21
31.2685179594395
 31
0.0
  0
LINE
  8
ITEM_STPG
  5
3E
 10
61.95733571485359
 20
37.2248298592704
 30
0.0
 11
61.95733571485359
 21
31.2685179594395
 31
0.0
  0
LINE
  8
ITEM_STPG
  5
3F
 10
51.04885408936203
 20
26.31634823377885
 30
0.0
 11
57.00516598919293
 21
26.31634823377885
 31
0.0
  0
LINE
  8
ITEM_STPG
  5
40
 10
51.04885408936203
 20
7.316978569792013
 30
0.0
 11
57.00516598919293
 21
7.316978569792013
 31
0.0
  0
LINE
  8
ITEM_50
  5
41
 10
33.86128039203497
 20
30.61671969657464
 30
0.0
 11
33.86128039203497
 21
5.032722368983229
 31
0.0
  0
ARC
  8
ITEM_50
  5
42
 10
31.16128039203498
 20
30.61671969657464
 30
0.0
 40
2.7
 50
0.0
 51
90.0
  0
LINE
  8
ITEM_50
  5
43
 10
21.961280392035
 20
36.01671969657473
 30
0.0
 11
21.961280392035
 21
33.31671969657469
 31
0.0
  0
POINT
  8
ITEM_HILFE
  5
44
 10
54.95696425205773
 20
33.31671969657469
 30
0.0
  0
POINT
  8
ITEM_HILFE
  5
46
 10
18.86128039203497
 20
33.31671969657469
 30
0.0
  0
LINE
  8
ITEM_50
  5
47
 10
59.49249815799048
 20
2.609612915388146
 30
0.0
 11
85.66407103324431
 21
28.78118579064195
 31
0.0
  0
LINE
  8
ITEM_50
  5
48
 10
85.66407103324431
 20
31.60961291538814
 30
0.0
 11
84.95696425205777
 21
32.31671969657469
 31
0.0
  0
LINE
  8
ITEM_50
  5
49
 10
56.66407103324429
 20
2.609612915388148
 30
0.0
 11
55.95696425205775
 21
3.316719696574695
 31
0.0
  0
ARC
  8
ITEM_50
  5
4A
 10
84.24985747087121
 20
30.19539935301505
 30
0.0
 40
2.0
 50
315.0
 51
44.99999999999984
1001
GENIUS_GENODEF_13
1002
{
1000
HIER
1070
     0
1002
}
1002
{
1000
MANEDIT
1070
     0
1002
}
1002
{
1000
NOSEL
1070
     0
1002
}
1002
{
1000
BEHIND
1070
     0
1002
}
1002
{
1000
REACTOR
1002
}
1001
GENIUS_GENOBJ-N-FIL_13
1002
{
1000
OWNER
1000
GEN
1002
}
  0
ARC
  8
ITEM_50
  5
4D
 10
58.07828459561739
 20
4.023826477761241
 30
0.0
 40
2.0
 50
224.9999999999999
 51
315.0
1001
GENIUS_GENODEF_13
1002
{
1000
HIER
1070
     0
1002
}
1002
{
1000
MANEDIT
1070
     0
1002
}
1002
{
1000
NOSEL
1070
     0
1002
}
1002
{
1000
BEHIND
1070
     0
1002
}
1002
{
1000
REACTOR
1002
}
1001
GENIUS_GENOBJ-N-FIL_13
1002
{
1000
OWNER
1000
GEN
1002
}
  0
LINE
  8
ITEM_50
  5
4E
 10
31.16128039203493
 20
2.316719696574693
 30
0.0
 11
6.561280392034966
 21
2.316719696574693
 31
0.0
  0
ARC
  8
ITEM_50
  5
4F
 10
31.16128039203498
 20
5.016719696574739
 30
0.0
 40
2.7
 50
270.0
 51
0.0
  0
ARC
  8
ITEM_50
  5
50
 10
6.561280392034966
 20
5.016719696574739
 30
0.0
 40
2.7
 50
180.0
 51
270.0
  0
ENDSEC
  0
EOF
